[NEW] Chords Kunci Gitar Olga Syahputra Hancur Hatiku [solo tab] Lirik Terjemahan Arti Lagu

SOLO HANTU chords Olga Syahputra Hancur Hatiku [solo tab] lyrics (Hancur Hatiku) 
Guitar by hezza

e|---------------------------------------15--14--10-|
B|--------10/12-10/12-10~-8-8h10-7~-10/12--12--12---|
G|7/9-7/11------------------------------------------|
D|--------------------------------------------------|
A|--------------------------------------------------|
E|--------------------------------------------------|

e|----12--10----10----|
B|8/10--10----12--12~-|
G|----------11--------|
D|--------------------|
A|--------------------|
E|--------------------|

e|-----------------------------------------------------------|
B|----------------------------7-8-7~-/8-8-7-7-------------7~-|
G|--------------------7-9-7~-9---------------9-9~-7-7-6-7-9--|
D|--7-9-7/9-7/11~-/7-9---------------------------------------|
A|/7-7-------------------------------------------------------|
E|-----------------------------------------------------------|

e|-----------------------------------------------------------------------------------------|
B|--------------------------------7-8-10~-/8-8-7-7----/8-8-7-7-----------------------------|
G|------------------------7-9-7~-9----------------9-9~--------9-9~--/16-16-15-15-16-16-18~-|
D|--7-9-7/9-7/9-7/11~-/7-9-----------------------------------------------------------------|
A|/7-7-------------------------------------------------------------------------------------|
E|-----------------------------------------------------------------------------------------|